Windows Live Messenger + Facebook

lunes, 14 de julio de 2014

grupo de tablaturas faciles para tu guitarra

Hola como estan en el dia de hoy les Traigo UNa Tablaturas De Guitarra Que Me Ayudaron 
Mucho Ami Y Espero que a ustedes TAmbien 
Si No Les Entienden Favor Mandenme Un Mensaje P.... 
y Las tablaturas
que es tablatura, la tablatura es una representación del brazo de la guitarra por medio de 
seis lineas dispuestas de manera horizontal representando las cuerdas de la guitarra. 
A tu izquierda, al principio de cada linea horizontal se colocan letras en cifrado americano 
que dicen las notas de cada cuerda. La cuerda mas aguda estara representada arriba de
 todo, es decir es la primera linea que se dibuja, en ocasiones la primera cuerda se dibuja 
con una "e" minúscula al lado,,,, asi. 
e|-------------------------------------------------------------| 
B|-------------------------------------------------------------| 
G|-------------------------------------------------------------| 
D|-------------------------------------------------------------| 
A|-------------------------------------------------------------| 
E|-------------------------------------------------------------| 
Pues basicamente, la tablatura indica que nota se debe tocar en el lugar exacto (esta es la
 gran diferencia que existe con respecto a la partitura en donde uno debe deducir que digitación 
usar).Los numeros representaran el traste en el que esta ubicada la nota, en el caso de que diga 
0 se tomará como una cuerda al aire sin tocar trastes. 
La  tablatura puede verse asi: -Las que les doy no son tan complicadas es un Ejemplo - 
E----5----7--------------------------3-----7------------------ 
B----5----8---------------0-1------1-1-----5--------8--7-5-7-- 
G----5----7-------------2-----2----------5-------------------- 
D----7----9----7-9----2--------------------------------------- 
A----7----10--------0-----------0----------------------------- 
E----5----7-----------------------------------8-7------------- 
En principio puede resultar bastante complicado pero la tablatura requiere mucha menos dedicación
 que la partitura. Observa que cuando hay varios numeros uno encima de otro (como en el ejemplo) 
indicara que deben tocarse al mismo tiempo, representando un acorde. El TAB debe leerse al igual 
que cualquier texto, de izquierda a derecha. 
Temas 
Iron Man de  Black Sabbath 

Riff 

|---------------------------------------------------------------------------| 
|---------------------------------------------------------------------------| 
|---------------------------------------------------------------------------| 
|---------------------------------------------------------------------------| 
|-4---7---7---9--9---12-11-12-11-12-11-12---7--7--9--9-----| 
|-2---5---5---7--7---10--9--10--9-10--9--10---5--5--7--7------| 
|-----------------------------------------------------------------------------| 
Back in Black de AC/DC 
Riff 
|-------2-2-2-----------3/0-------------------|--------2-2-2------------------------------------------| 
|-------3-3-3---2-2-2-------3/0-------------|--------3-3-3----2-2-2-------------------------------| 
|-1----2-2-2---2-2-2--------------2/0-------|-1------2-2-2----2-2-2-------------------------------| 
|-2----0-0-0---2-2-2----------------------2-|-2------0-0-0----2-2-2-------------------------------| 
|-2--------------0-0-0------------------------|-2-----------------0-0-0------2----2-0--2-1--2-2--| 
|-0--------------------------------------------|-0---------------------------------3--------------------| 
donde dice 3/0 y 2/0 hay que poner el dedo en el traste 3 o 2 y pelliscarlo soltando lo(se llama
 tapping) 
Highway to hell - AC/DC 
Intro 
|-----------------------------------------------------------------------------------------| 
|-----------2--2--2-----------3--3--3------3--3--3-----3--3--3------2-----2--2-| 
|-----------2--2--2-----------2--2--0------2--2--0-----2--2--0------0-----2--2-| 
|-----------2--2--2-----------0--0--0------0--0--0-----0--0--0------0-----2--2-| 
|-----------0--0--0-----------x--x---x------x--x--x------x--x--x------x------0--0-| 
|------------------------------2--2--3-------2--2--3-----2--2--3------3-----------| 
-(I Can't Get no) Satisfaccion -de  De Los Rollings 
Intro Y Casi Todo (Esta Esta MUy Facil Y DIVertida ) 
Todo en la 5 cuerda: 
|-2-2--2-4-5-555-44-| desp se repite 
-Paranoid de Black Sabbath 
Riff 
|----------------------------------------------------| 
|----------------------------------------------------| 
|-------------------7-9--------7-9----------------| 
|--9--9-----7-9--------7-9----------------------| 
|--7--7--------------------------------------------| 
|---------------------------------------------------| 

-El ritmo es(acordes de quinta): 
1)|E (8 tiempos)| D (4 tiempos) |D G D(1 ves)| 
2)|E(1 ves, 2 tiempos)|C(1 ves, 1 tiempo)|D(1 ves, 1 tiempo)|E(4 tiempos)| 
3)|E(8 tiempos)|D(8 tiempos)|E(8 tiempos)|D(8 tiempos)| 
-Twist And Shout - The Beatles (la de tineli ) 
Riff y casi toda la cancion 
|--------------------------------------------| 
|--------------------------------------------| 
|--------------------------------------------| 
|-----------7---7---------------------------| 
|-------4---5---5--5--5--7--7--7--7--7| 
|5--7---------------3--3--5--5--5--5--5| Es asi.. 
------------------------------------------------------------------------------------------------------------------------------------
------------------------------------------------ 
-Smoke On The Water - Deep Purple *Muy Recomendada Si Vas Empezando) 
Riff 
|----------------------------------------| 
|----------------------------------------| 
|-0-3-5---0-3-6-5---0-3-5---3-0----------| 
|-0-3-5---0-3-6-5---0-3-5---3-0----------| 
|----------------------------------------| 
|----------------------------------------| 
---------------------------------------------------------------------------------------------------------------------------------------
--------------------------------------------- 

-Shunshine Of Your Love - Cream 
Riff |--------------------------------------------------------------------| 
|--------------------------------------------------------------------| 
|--------------------------------------------------------------------| 
|------12--12---10---12----------------------------------------| 
|------------------------------12--11--10------8^--------------| 
|----------------------------------------------10------10---------| 
 Donde dice 8^ hay que estirar un poco la cuerda 
-Thunderstruck - AC/DC 
RAPIDO 
Intro o riff 
-Va dos veces.. 
|-------------------------------------------------------------------------------------------| 
|0-4-0-7-0-4-0-7-0-4-0-7-0-4-0-7-0-4-0-7-0-4-0-7-0-4-0-7-0-4-0-7-0-------------| 
|-------------------------------------------------------------------------------------------| 
|-------------------------------------------------------------------------------------------| 
|-------------------------------------------------------------------------------------------| 
|-------------------------------------------------------------------------------------------| 

|-------------------------------------------------------------------------------------------| 
|0-5-0-8-0-5-0-8-0-5-0-8-0-5-0-8-0-5-0-8-0-5-0-8-0-5-0-8-0-5-0-8-0-------------| 
|-------------------------------------------------------------------------------------------| 
|-------------------------------------------------------------------------------------------| 
|-------------------------------------------------------------------------------------------| 
|-------------------------------------------------------------------------------------------| 

|-------------------------------------------------------|-------------------------------------------------------| 
|-0-12-0-10-0-9-0-10-0-9-0-7-0-9-0-7-0---|-0-12-0-10-0-9-0-10-0-9-0-7-0-9-0-7-0---------------| 
|-------------------------------------------------------|-------------------------------------------------------| 
|-------------------------------------------------------|-------------------------------------------------------| 
|-------------------------------------------------------|-------------------------------------------------------| 
|-------------------------------------------------------|-------------------------------------------------------| 

|-----------------------------------------------------------|-------------------------------| 
|-0-12-0-10-0-9-0-10-0-9-0-7-0-9-0-7-0-5-0-|-4-0-5-0-4-0-2-0-4-0-2-------------| 
|-----------------------------------------------------------|-------------------------------| 
|-----------------------------------------------------------|-------------------------------| 
|-----------------------------------------------------------|-------------------------------| 
|-----------------------------------------------------------|-------------------------------| 

-Cuando termina esto Malcon Young(el 2do guitarrista hace) 
|-----------------------------------------------------------| 
|-----------------------------------------------------------| 
|-----------x---x--x--x--x--x--x------------------------| 
|---4-4----x---x--x--x--x--x--x------------------------| 
|---2-2---------------------------------------------------| 
|-----------------------------------------------------------|
 Lo hace todo el tiempo que el coro hace thunder ahahahahah thunder! 
- las equis equivalen al traste 2 y 4 respectivamente 

-Whole Lotta - Led Zeppellin 
-Intro 

|--------------------------|------------------------------------------------------------| 
|--------------------------|------------------------------------------------------------| 
|--------------------------|------------------------------------------------------------| 
|--------------------------|--9---x---x---9---x---x---9---x---x---9---x---x---9-| 
|------------5-------5----|--7---x---x---7---x---x---7---x---x---7---x---x---7-| 
|-------7-------7--------|------------------------------------------------------------| se repite 

-en las x tenes que tocar el traste 7 y 9 pero no apretarlo, apenas tocarlo cosa que no
seuene 
-Paradise City - Guns N' Roses 
-Intro 
|G|C|Fadda C|G| 
...Fadda 
|----3------| 
|----1------| 
|----2------| 
|----3------| 
|------------| 
|------------| 
-Un solito de todo el tema 
|----------------------------------------------------------| 
|----------------------------------------------------------| 
|----------------------------------------------------------| 
|----------------------------------------------------------| 
|--------------------------------1------------------------| 
|-3-1-2-3-1-2-3-1-3-1-3---------------------------| 
----------------------------------------------------------------------------------------------------------------------------
---------------------------------------
-El Padrino 
-Ya se que no es de rock, pero como slash la toca y a muchos les gusta se las pongo... -
|---0--3--2--0--3--0--2--0---------------|------0--3--2--0--3--0--2--0------------|----------0--2--------------0-| 
|-0-----------------------------1--3--0---|-0----------------------------------0--------|------1---------------0--4---| 
|------------------------------------------|----------------------------------------3--2-|-0-----------------0-----------| 
|------------------------------------------|----------------------------------------------|--------------------------------| 
|------------------------------------------|----------------------------------------------|--------------------------------| 
|------------------------------------------|----------------------------------------------|--------------------------------| 
|----3----------------------------| 
|--------3--1-0-3-1-0-0--4---| 
|--------------------------------0| 
|2-------------------------------| 
|----------------------------------| 
|----------------------------------| 
-No Me Arrepiento De Este Amor -
Intro 
|-----------------------------|-------------------------------|------------------------------------|--------------------------------------| 
|-----------------------------|-------------------------------|------------------------------------|--------------------------------------| 
|-----------------------------|-------------------------------|------------------------------------|--------------------------------------| 
|-----------------------------|-------------------------------|------------------------------------|--------------------------------------| 
|-----------------------------|---------3--5--5---------5--|--5--5--6--5--3--3-------------|---------3--5--3--------------------| 
|--3--5--6--6--5--5--3---|--3--6------------6--6------|------------------------6--6--5--|--5--5-------------6--6--5--5--3-| 
Se repite 
Pues bueno aquí he terminado con las tablaturas, creo que no hay errores porque las corregí con mis cuadernos... 
--Espero que les haya gustado hasta pronto